arbolrojo arbolrojo
Aguante GAZPACHO!!
 
 chatChat   BuscarBuscar   MiembrosMiembros   Grupos de UsuariosGrupos de Usuarios   RegistrarseRegistrarse 
 PerfilPerfil   Entre para ver sus mensajes privadosEntre para ver sus mensajes privados   LoginLogin 




Bienvenido a mi foro
Temas y acordes
Ir a página 1, 2  Siguiente
 
Publicar nuevo tema   Responder al tema Portal » Foros de discusión -> Descargas
Ver tema anterior :: Ver tema siguiente  
Autor Mensaje
patorrecapo
ADMINISTRADOR



Registrado: 19 Feb 2008
Mensajes: 1166
Ubicación: Trenque Lauquen
Reputación: 23.7
votos: 2
Sexo:Este usuario es un Hombre

MensajePublicado: Jue May 15, 2008 11:13 am    Asunto: Temas y acordes Responder citando

Para los q tocamos la guitarra les dejo esto q nos interesa.. si alguno tiene otro tema dejelo.. jejeje...
Aclaro q los q dejo aca los saque yo..

No me vengan con cosas raras.. les dejo las bases.. ustedes si quieren le metenpunteos y lo q mas les guste.. jajaj..

Aclaracion: las cuerdas q tienen la X no suenan, los numeros 1 al 4 son los dedos de la mano izquierda empezando del indice y terminando en el meñique, el numero que se encuentra debajo (no en todos los casos) es el del traste en que estamos. Ej: en el Do es el 8. Si no tiene numero es porque es el 1 o como se vea enla imagen, puede ser 2, 3, et.. solo es para no dibujar los trastes hasta el 8... (ceo q son acordes de 5ta)


A pleno
Do
\
-----|-----|-----|-----|-----| X
-----|-----|-----|-----|-----| X
-----|-----|-----|-----|-----| X
-----|-----|-----|-----|-----| X
-----|-----|-----|-----|---3-|
-----|-----|--1--|-----|-----|
/-------------8

Sol
\
-----|-----|-----|-----|-----| X
-----|-----|-----|-----|-----| X
-----|-----|-----|-----|-----| X
-----|-----|-----|-----|-----| X
-----|-----|-----|-----|---3-|
-----|-----|--1--|-----|-----|
/

La
\
-----|-----|-----|-----|-----| X
-----|-----|-----|-----|-----| X
-----|-----|-----|-----|-----| X
-----|-----|-----|-----|-----| X
-----|-----|-----|-----|---3-|
-----|-----|--1--|-----|-----|
/-------------5

Fa
\
-----|-----|-----|-----|X
-----|-----|-----|-----|X
-----|-----|-----|-----|X
-----|-----|-----|-----|X
-----|-----|---3-|-----|
--1--|-----|-----|-----|
/

_________________
Aguante GAZPACHO!!! Y el club de fans ARBOL ROJO!!!
Volver arriba
Ver perfil de usuario Enviar mensaje privado Visitar sitio web del autor MSN Messenger
patorrecapo
ADMINISTRADOR



Registrado: 19 Feb 2008
Mensajes: 1166
Ubicación: Trenque Lauquen
Reputación: 23.7
votos: 2
Sexo:Este usuario es un Hombre

MensajePublicado: Jue May 15, 2008 11:16 am    Asunto: Responder citando

Un tema q no van a encontrar en ningun lado es "Escapar"

Les tiro las notas, son..

Mi menor
Re mayor
Do
Si7

Al principio estan arpegiadas, y talvez las transporte.. pero la base son esas cuatro notas todo el tema..

_________________
Aguante GAZPACHO!!! Y el club de fans ARBOL ROJO!!!
Volver arriba
Ver perfil de usuario Enviar mensaje privado Visitar sitio web del autor MSN Messenger
patorrecapo
ADMINISTRADOR



Registrado: 19 Feb 2008
Mensajes: 1166
Ubicación: Trenque Lauquen
Reputación: 23.7
votos: 2
Sexo:Este usuario es un Hombre

MensajePublicado: Jue May 15, 2008 11:43 am    Asunto: Responder citando

Enseñen a reir

\
-----|-----|-----|-----|-----| X
-----|-----|-----|-----|-----| X
-----|-----|-----|-----|-----| X
-----|-----|-----|-----|-----| X
-----|-----|-----|-----|---3-|
-----|-----|--1--|-----|-----|
/-------------5

\
-----|-----|-----|-----|-----| X
-----|-----|-----|-----|-----| X
-----|-----|-----|-----|-----| X
-----|-----|-----|-----|-----| X
-----|-----|-----|-----|---3-|
-----|-----|--1--|-----|-----|
/------------10


La parte que dice

"navegando voy en busca de maestros, que enseñen a reir" hace asi.

\
-----|-----|-----|-----|-----| X
-----|-----|-----|-----|-----| X
-----|-----|-----|-----|-----| X
-----|-----|-----|-----|-----| X
-----|-----|-----|-----|---3-|
-----|-----|--1--|-----|-----|
/-------------5

\
-----|-----|-----|-----|-----| X
-----|-----|-----|-----|-----| X
-----|-----|-----|-----|-----| X
-----|-----|-----|-----|-----| X
-----|-----|-----|-----|---3-|
-----|-----|--1--|-----|-----|
/-------------7

\
-----|-----|-----|-----|-----| X
-----|-----|-----|-----|-----| X
-----|-----|-----|-----|-----| X
-----|-----|-----|-----|-----| X
-----|-----|-----|-----|---3-|
-----|-----|--1--|-----|-----|
/-------------5

Despues sigue como venia antes, uno en el 5to y otro en el 10mo.

cualquier duda consulten.

_________________
Aguante GAZPACHO!!! Y el club de fans ARBOL ROJO!!!
Volver arriba
Ver perfil de usuario Enviar mensaje privado Visitar sitio web del autor MSN Messenger
patorrecapo
ADMINISTRADOR



Registrado: 19 Feb 2008
Mensajes: 1166
Ubicación: Trenque Lauquen
Reputación: 23.7
votos: 2
Sexo:Este usuario es un Hombre

MensajePublicado: Jue May 15, 2008 11:49 am    Asunto: Responder citando

Esperame..

En la estrofas hace uno y uno de los siguientes:

\
-----|-----|-----|-----|-----| X
-----|-----|-----|-----|-----| X
-----|-----|-----|-----|-----| X
-----|-----|-----|-----|-----| X
-----|-----|-----|-----|---3-|
-----|-----|--1--|-----|-----|
/-------------9

\
-----|-----|-----|-----|-----| X
-----|-----|-----|-----|-----| X
-----|-----|-----|-----|-----| X
-----|-----|-----|-----|-----| X
-----|-----|-----|-----|---3-|
-----|-----|--1--|-----|-----|
/-------------5

Y en el estribillo hace estos:

para que sentirme
\
-----|-----|-----|-----|-----| X
-----|-----|-----|-----|-----| X
-----|-----|-----|-----|-----| X
-----|-----|-----|-----|-----| X
-----|-----|-----|-----|---3-|
-----|-----|--1--|-----|-----|
/------------12

asiii
\
-----|-----|-----|-----|-----| X
-----|-----|-----|-----|-----| X
-----|-----|-----|-----|-----| X
-----|-----|-----|-----|-----| X
-----|-----|-----|-----|---3-|
-----|-----|--1--|-----|-----|
/-------------7

yo traigo recuerdos cargados de
\
-----|-----|-----|-----|-----| X
-----|-----|-----|-----|-----| X
-----|-----|-----|-----|-----| X
-----|-----|-----|-----|-----| X
-----|-----|-----|-----|---3-|
-----|-----|--1--|-----|-----|
/-------------9

lluvia
\
-----|-----|-----|-----|-----| X
-----|-----|-----|-----|-----| X
-----|-----|-----|-----|-----| X
-----|-----|-----|-----|-----| X
-----|-----|-----|-----|---3-|
-----|-----|--1--|-----|-----|
/-------------5

Creo q lo repite dos veces. despues vuelve a las dos notas del comienzo. ahi les puse la letra para q vean cuando hace el cambio de acorde.. pero si conocen ell tema no lo nesesitan.

_________________
Aguante GAZPACHO!!! Y el club de fans ARBOL ROJO!!!
Volver arriba
Ver perfil de usuario Enviar mensaje privado Visitar sitio web del autor MSN Messenger
patorrecapo
ADMINISTRADOR



Registrado: 19 Feb 2008
Mensajes: 1166
Ubicación: Trenque Lauquen
Reputación: 23.7
votos: 2
Sexo:Este usuario es un Hombre

MensajePublicado: Jue May 15, 2008 1:35 pm    Asunto: Responder citando

Evolucionar

Esta es la base.. lleva algunos cortes.. pero en si son estas notas..


\
-----|-----|-----|-----|-----| X
-----|-----|-----|-----|-----| X
-----|-----|-----|-----|-----| X
-----|-----|-----|-----|-----| X
-----|-----|-----|-----|---3-|
-----|-----|--1--|-----|-----|
/-------------7

\
-----|-----|-----|-----|-----| X
-----|-----|-----|-----|-----| X
-----|-----|-----|-----|-----| X
-----|-----|-----|-----|-----| X
-----|-----|-----|-----|---3-|
-----|-----|--1--|-----|-----|
/------------10

\
-----|-----|-----|-----|-----| X
-----|-----|-----|-----|-----| X
-----|-----|-----|-----|-----| X
-----|-----|-----|-----|-----| X
-----|-----|-----|-----|---3-|
-----|-----|--1--|-----|-----|
/-------------5

y asi las repite..

_________________
Aguante GAZPACHO!!! Y el club de fans ARBOL ROJO!!!
Volver arriba
Ver perfil de usuario Enviar mensaje privado Visitar sitio web del autor MSN Messenger
patorrecapo
ADMINISTRADOR



Registrado: 19 Feb 2008
Mensajes: 1166
Ubicación: Trenque Lauquen
Reputación: 23.7
votos: 2
Sexo:Este usuario es un Hombre

MensajePublicado: Jue May 15, 2008 1:41 pm    Asunto: Responder citando

Para siempre

intro.
e------------------------------------------------------
b------------------------------------------------------
g------------------------------------------------------
D------------------------------------------------------
A------------------------------------------------------
e-0-3-0-3-0--3-0-3-0-3-0--3-0-3-0-3-0--3-0-3-0-3-5-----

------------------------X2------------------------------


luego sigue igual pero acompañando la segunda guitarra (Dany).

e------------------------------------------------------
b------------------------------------------------------
g------------------------------------------------------
D---5---5----5---5---5----5---5---5----5---5---5-7-----
A-7---7---7----7---7---7----7---7---7----7---7---------
e------------------------------------------------------

e------------------------------------------------------
b------------------------------------------------------
g------------------------------------------------------
D---5---5----5---5---5----5---5---5----5---5---5--9vib-
A-7---7---7----7---7---7----7---7---7----7---7---------
e------------------------------------------------------

los acordes usados aqui, son puras quintas.

C D
no tienes que impresionar
Em C
ni que seguir la corriente
F
voy a apearme aqui
G Em C D
en la orilla del presente.

C D
donde el hombre se asfixia
Em C
escribe un testamento en chile negro
F G
el supplicio es estar contigo
Em C D
eres la alquimia de mi veneno.

Em C D
la derrota no es una opcion
C D
y no hay excusas (RIFF 1)
Em C D
parasiempre me parece
C D
mucho tiempo.

RIFF 1

e-10-8-7------------------|
b--------10-8-7-----8---8-|
g---------------9-7---9---|
D-------------------------|
A-------------------------|
e-------------------------|

CORO (lleva la intro como riff y va acompañado en puro Em).

para siempreeeeeeeeeeeeeee, no hay nada para siempre no

para siempreeeeeeeeeeeeeee, no hay nada para siempre no

riff 2 (esto no estoy seguro que este bien, pero lo puedes
hacer asi metiendole PALM MUTE).

e-------------|
b-----------7-|
g-7-----------|
D---9-7---9---|
A-------9-----|
e-------------|

C D
la influencia de la ira
Em C
y los impulsos de la lengua
F
no tengo toda la vida
G Em C D
aun hay cajas con sorpresa.

Em C D
la derrota no es una opcion
C D
y no hay excusas (RIFF 1)
Em C D
parasiempre me parece
C D
mucho tiempooooooooooooooooooooooooo.

solo de Nando.

e----------------------------|------------5-3--------------
b----------------------------|----3-5-3-3-------5--8----------
g-----------------------4--9-|-2s4-4---4-----------7-----------
D-----5---6-5---5-7-5------9-|---------------------9------
A-5h7---7-----7-------7----7-|---------------------------
e----------------------------|--------------------------

e----------------------------|--------------5-3-0------
b----------------------------|----3--5-3--3------------
g--------------------------9-|-2s4-4-----4--------5----
D-----5---6-5---5-7-5---5--9-|--------------------5----
A-5h7---7-----7-------7----7-|--------------------3----
e----------------------------|-------------------------

C D
volvere con la boca amargada
Em C D
y el corazon bien ¡JODIDO!


CORO (lleva la intro como riff y va acompañado en puro Em).

para siempreeeeeeeeeeeeeee, no hay nada para siempre no

para siempreeeeeeeeeeeeeee, no hay nada para siempre no

para siempreeeeeeeeeeeeeee, no hay nada para siempre no

para siempreeeeeeeeeeeeeee, no hay nada para siempre no

para siempreeeeeeeeeeeeeee, no hay nada para siempre no

para siempreeeeeeeeeeeeeee, no hay nada para siempre noooooooo.

_________________
Aguante GAZPACHO!!! Y el club de fans ARBOL ROJO!!!
Volver arriba
Ver perfil de usuario Enviar mensaje privado Visitar sitio web del autor MSN Messenger
javier27
Super gazpachero/a



Registrado: 04 Mar 2008
Mensajes: 797
Ubicación: Lomas del Mirador
Reputación: 57.1Reputación: 57.1Reputación: 57.1
Sexo:Este usuario es un Hombre

MensajePublicado: Jue May 15, 2008 2:11 pm    Asunto: Responder citando

Gracias PAto, los pruebo y te aviso.

Gracias!!!.

_________________
Mi rompedero de Pelotas esta siempre plagado de buenas intenciones.

Volver arriba
Ver perfil de usuario Enviar mensaje privado Enviar email Visitar sitio web del autor
patorrecapo
ADMINISTRADOR



Registrado: 19 Feb 2008
Mensajes: 1166
Ubicación: Trenque Lauquen
Reputación: 23.7
votos: 2
Sexo:Este usuario es un Hombre

MensajePublicado: Jue May 15, 2008 2:30 pm    Asunto: Responder citando

javier27 escribió:
Gracias PAto, los pruebo y te aviso.

Gracias!!!.


JAJAJ. me causo ese "Los pruebo y te aviso" como si le pusieras play.. jajaj..

_________________
Aguante GAZPACHO!!! Y el club de fans ARBOL ROJO!!!
Volver arriba
Ver perfil de usuario Enviar mensaje privado Visitar sitio web del autor MSN Messenger
javier27
Super gazpachero/a



Registrado: 04 Mar 2008
Mensajes: 797
Ubicación: Lomas del Mirador
Reputación: 57.1Reputación: 57.1Reputación: 57.1
Sexo:Este usuario es un Hombre

MensajePublicado: Mie May 21, 2008 11:26 pm    Asunto: Responder citando

Pato, estoy en problemas.

No me sale esa notación que haces al principio. Lo hago pero el sonido ni me suena.
Duda: Los dedos (acorde) estan siempre igual (1=indice 3 =anular) y lo unico que cambia es el traste?
O hay algo que estoy haciendo mal. No hay cejilla en ningun acorde?.

Los demas acordes de notación si7 do re y todos esos van bien. El tema es la otra notación, que el sonido que me sale es cualquiera.

Help!.

_________________
Mi rompedero de Pelotas esta siempre plagado de buenas intenciones.

Volver arriba
Ver perfil de usuario Enviar mensaje privado Enviar email Visitar sitio web del autor
patorrecapo
ADMINISTRADOR



Registrado: 19 Feb 2008
Mensajes: 1166
Ubicación: Trenque Lauquen
Reputación: 23.7
votos: 2
Sexo:Este usuario es un Hombre

MensajePublicado: Jue May 22, 2008 8:32 am    Asunto: Responder citando

jaja.. si. va el indice en el 1 y el anular en el 3... pegale fuerte a las dos cuerdas (acordate q estas tocando rock y no lentos.. jajaj..) Y solo pegale a esas dos cuerdas.. las otras ni las toques...

Las cuerdas no se rompen... Solo se cortan.. jajaja.. (es un chiste) a mi me duran años las cuerdas de la criolla y de la electrica tengo las originales (6 meses) que ya las tendria q cambiar porque se ponen viejas y pierden sonido.. sobre todo lo de la criolla..


PEGALE FUERTE Y CONTAME.. Fijate q en algunas partes, si frenas un poco las cuerdas con la palma de la mano derecha, (como si hicieras un reef) a veces suena mas parecido, pero solo en alguna parte del tema..

DALE MASA, PEGALE SIN MIEDO!!! VAS A VER Q SUENA MUY PARECIDO...

PD:Si sacas el arpegio de escapar que hace al principio ponelo aca que a mi eso de los punteos y arpegios me complica.. jaja..

_________________
Aguante GAZPACHO!!! Y el club de fans ARBOL ROJO!!!
Volver arriba
Ver perfil de usuario Enviar mensaje privado Visitar sitio web del autor MSN Messenger
patorrecapo
ADMINISTRADOR



Registrado: 19 Feb 2008
Mensajes: 1166
Ubicación: Trenque Lauquen
Reputación: 23.7
votos: 2
Sexo:Este usuario es un Hombre

MensajePublicado: Jue May 22, 2008 8:37 am    Asunto: Responder citando

Fijate q facu en uno de los videos del acustico en jugala q es gratis, los hace (porque esta tocando la viola)

_________________
Aguante GAZPACHO!!! Y el club de fans ARBOL ROJO!!!
Volver arriba
Ver perfil de usuario Enviar mensaje privado Visitar sitio web del autor MSN Messenger
javier27
Super gazpachero/a



Registrado: 04 Mar 2008
Mensajes: 797
Ubicación: Lomas del Mirador
Reputación: 57.1Reputación: 57.1Reputación: 57.1
Sexo:Este usuario es un Hombre

MensajePublicado: Vie May 23, 2008 9:02 am    Asunto: Responder citando

Si los de Facu son justo los que te decia que son faciles, ya que es la notación que se leer.

Que lindo que suena "Escapar" (mas cuando lo toca uno no?)..

_________________
Mi rompedero de Pelotas esta siempre plagado de buenas intenciones.

Volver arriba
Ver perfil de usuario Enviar mensaje privado Enviar email Visitar sitio web del autor
missis_nina
Super gazpachero/a



Registrado: 21 Feb 2008
Mensajes: 798
Ubicación: Fans
Reputación: 44.4Reputación: 44.4
Sexo:Esta usuaria es una Mujer

MensajePublicado: Sab May 24, 2008 7:32 pm    Asunto: Responder citando

en este topic opinare solo cuando tengas mas conocimientos sobre el tema jejejeje pero que bien que suenan y como me gusta! es que nunca me puse a estudiar, pero me gusta la guitarra a morir! y todo lo que sea musica ... Wink

_________________
Volver arriba
Ver perfil de usuario Enviar mensaje privado Visitar sitio web del autor Yahoo Messenger MSN Messenger
patorrecapo
ADMINISTRADOR



Registrado: 19 Feb 2008
Mensajes: 1166
Ubicación: Trenque Lauquen
Reputación: 23.7
votos: 2
Sexo:Este usuario es un Hombre

MensajePublicado: Dom May 25, 2008 11:54 am    Asunto: Responder citando

weno.. prueben por que a mi me salen.. jejeje.. no da para q suba un video.. (me da vergüenza).. Asi q ni lo pidan.

_________________
Aguante GAZPACHO!!! Y el club de fans ARBOL ROJO!!!
Volver arriba
Ver perfil de usuario Enviar mensaje privado Visitar sitio web del autor MSN Messenger
ILEANITA
Gazpachero/a top



Registrado: 18 May 2008
Mensajes: 1703
Ubicación: Cap fed. FLORESTA
Reputación: 91.2Reputación: 91.2Reputación: 91.2Reputación: 91.2Reputación: 91.2
votos: 3
Sexo:Esta usuaria es una Mujer

MensajePublicado: Dom May 25, 2008 12:36 pm    Asunto: Responder citando

A PROBAR SE HA DICHOOO!!!
GRAX Y BESOTES!!!



(\|/)
(/|\) ***ILE***

_________________
Volver arriba
Ver perfil de usuario Enviar mensaje privado Visitar sitio web del autor MSN Messenger
Mostrar mensajes de anteriores:   
Publicar nuevo tema   Responder al tema    Portal » Foros de discusión -> Descargas Todas las horas son GMT - 3 Horas
Ir a página 1, 2  Siguiente
Todas las horas son GMT - 3 Horas
Ir a página 1, 2  Siguiente
Página 1 de 2


Cambiar a:  
Puede publicar nuevos temas en este foro
No puede responder a temas en este foro
No puede editar sus mensajes en este foro
No puede borrar sus mensajes en este foro
No puede votar en encuestas en este foro




Mapa del sitio - Powered by phpBB © 2001, 2007 phpBB Group

Crear foro phpbb | foros de Musica | Hosting gratis | soporte foros | Contactar | Denunciar un abuso | FAQ | Foro ejemplo

Para vps para wordpress ssd en Desafiohosting.com